  0
SECTION
  2
HEADER
  9
$ACADVER
  1
AC1009
  9
$INSBASE
 10
0.0
 20
0.0
 30
0.0
  9
$EXTMIN
 10
-1845.327086268725
 20
-1620.203677947532
 30
0.0
  9
$EXTMAX
 10
3319.546235927276
 20
2675.473625775143
 30
0.0
  9
$LIMMIN
 10
660.1806198816892
 20
475.7895622754968
  9
$LIMMAX
 10
420.0
 20
297.0
  9
$ORTHOMODE
 70
     1
  9
$REGENMODE
 70
     1
  9
$FILLMODE
 70
     1
  9
$QTEXTMODE
 70
     0
  9
$MIRRTEXT
 70
     0
  9
$DRAGMODE
 70
     2
  9
$LTSCALE
 40
1.0
  9
$OSMODE
 70
     0
  9
$ATTMODE
 70
     2
  9
$TEXTSIZE
 40
3.5
  9
$TRACEWID
 40
0.1
  9
$TEXTSTYLE
  7
STANDARD
  9
$CLAYER
  8
ITEM_50
  9
$CELTYPE
  6
BYLAYER
  9
$CECOLOR
 62
   256
  9
$DIMSCALE
 40
1.0
  9
$DIMASZ
 40
2.5
  9
$DIMEXO
 40
1.0
  9
$DIMDLI
 40
8.0
  9
$DIMRND
 40
0.0
  9
$DIMDLE
 40
0.0
  9
$DIMEXE
 40
2.0
  9
$DIMTP
 40
0.1
  9
$DIMTM
 40
0.1
  9
$DIMTXT
 40
3.5
  9
$DIMCEN
 40
2.0
  9
$DIMTSZ
 40
0.0
  9
$DIMTOL
 70
     0
  9
$DIMLIM
 70
     0
  9
$DIMTIH
 70
     0
  9
$DIMTOH
 70
     0
  9
$DIMSE1
 70
     0
  9
$DIMSE2
 70
     0
  9
$DIMTAD
 70
     1
  9
$DIMZIN
 70
     8
  9
$DIMBLK
  1

  9
$DIMASO
 70
     1
  9
$DIMSHO
 70
     1
  9
$DIMPOST
  1

  9
$DIMAPOST
  1

  9
$DIMALT
 70
     0
  9
$DIMALTD
 70
     2
  9
$DIMALTF
 40
25.39999999999999
  9
$DIMLFAC
 40
1.0
  9
$DIMTOFL
 70
     1
  9
$DIMTVP
 40
0.0
  9
$DIMTIX
 70
     0
  9
$DIMSOXD
 70
     0
  9
$DIMSAH
 70
     0
  9
$DIMBLK1
  1

  9
$DIMBLK2
  1

  9
$DIMSTYLE
  2
GEN-ISO
  9
$DIMCLRD
 70
   256
  9
$DIMCLRE
 70
   256
  9
$DIMCLRT
 70
     2
  9
$DIMTFAC
 40
0.71
  9
$DIMGAP
 40
1.5
  9
$LUNITS
 70
     2
  9
$LUPREC
 70
     3
  9
$SKETCHINC
 40
0.1
  9
$FILLETRAD
 40
2.5
  9
$AUNITS
 70
     0
  9
$AUPREC
 70
     1
  9
$MENU
  1

  9
$ELEVATION
 40
0.0
  9
$PELEVATION
 40
0.0
  9
$THICKNESS
 40
0.0
  9
$LIMCHECK
 70
     0
  9
$BLIPMODE
 70
     0
  9
$CHAMFERA
 40
2.5
  9
$CHAMFERB
 40
2.5
  9
$SKPOLY
 70
     1
  9
$TDCREATE
 40
2449548.412128009
  9
$TDUPDATE
 40
2450319.497506018
  9
$TDINDWG
 40
0.0271200231
  9
$TDUSRTIMER
 40
0.0271200231
  9
$USRTIMER
 70
     1
  9
$ANGBASE
 50
0.0
  9
$ANGDIR
 70
     0
  9
$PDMODE
 70
     3
  9
$PDSIZE
 40
0.0
  9
$PLINEWID
 40
0.0
  9
$COORDS
 70
     2
  9
$SPLFRAME
 70
     0
  9
$SPLINETYPE
 70
     6
  9
$SPLINESEGS
 70
     8
  9
$ATTDIA
 70
     1
  9
$ATTREQ
 70
     1
  9
$HANDLING
 70
     1
  9
$HANDSEED
  5
43
  9
$SURFTAB1
 70
     6
  9
$SURFTAB2
 70
     6
  9
$SURFTYPE
 70
     6
  9
$SURFU
 70
     6
  9
$SURFV
 70
     6
  9
$UCSNAME
  2

  9
$UCSORG
 10
0.0
 20
0.0
 30
0.0
  9
$UCSXDIR
 10
1.0
 20
0.0
 30
0.0
  9
$UCSYDIR
 10
0.0
 20
1.0
 30
0.0
  9
$PUCSNAME
  2

  9
$PUCSORG
 10
0.0
 20
0.0
 30
0.0
  9
$PUCSXDIR
 10
1.0
 20
0.0
 30
0.0
  9
$PUCSYDIR
 10
0.0
 20
1.0
 30
0.0
  9
$USERI1
 70
     0
  9
$USERI2
 70
     3
  9
$USERI3
 70
    15
  9
$USERI4
 70
     0
  9
$USERI5
 70
     0
  9
$USERR1
 40
1.0
  9
$USERR2
 40
1.0
  9
$USERR3
 40
0.0
  9
$USERR4
 40
1.0
  9
$USERR5
 40
0.0
  9
$WORLDVIEW
 70
     1
  9
$SHADEDGE
 70
     3
  9
$SHADEDIF
 70
    70
  9
$TILEMODE
 70
     1
  9
$MAXACTVP
 70
     4
  9
$PINSBASE
 10
0.0
 20
0.0
 30
0.0
  9
$PLIMCHECK
 70
     0
  9
$PEXTMIN
 10
1.000000000000000E+20
 20
1.000000000000000E+20
 30
1.000000000000000E+20
  9
$PEXTMAX
 10
-1.000000000000000E+20
 20
-1.000000000000000E+20
 30
-1.000000000000000E+20
  9
$PLIMMIN
 10
0.0
 20
0.0
  9
$PLIMMAX
 10
420.0
 20
297.0
  9
$UNITMODE
 70
     0
  9
$VISRETAIN
 70
     0
  9
$PLINEGEN
 70
     0
  9
$PSLTSCALE
 70
     0
  9
$TREEDEPTH
 70
  3020
  9
$DWGCODEPAGE
  3
dummy
  0
ENDSEC
  0
SECTION
  2
TABLES
  0
TABLE
  2
VPORT
 70
     2
  0
VPORT
  2
*ACTIVE
 70
     0
 10
0.0
 20
0.0
 11
1.0
 21
1.0
 12
3051.309963610183
 22
1468.75378646307
 13
0.0
 23
0.0
 14
1.0
 24
1.0
 15
10.0
 25
10.0
 16
0.0
 26
0.0
 36
1.0
 17
0.0
 27
0.0
 37
0.0
 40
10473.59223254388
 41
1.451162790697674
 42
50.0
 43
0.0
 44
0.0
 50
0.0
 51
0.0
 71
     0
 72
   100
 73
     1
 74
     0
 75
     0
 76
     0
 77
     0
 78
     0
  0
ENDTAB
  0
TABLE
  2
LTYPE
 70
     1
  0
LTYPE
  2
CONTINUOUS
 70
    64
  3
Solid line
 72
    65
 73
     0
 40
0.0
  0
ENDTAB
  0
TABLE
  2
LAYER
 70
     2
  0
LAYER
  2
0
 70
     0
 62
     7
  6
CONTINUOUS
  0
LAYER
  2
ITEM_50
 70
    64
 62
     7
  6
CONTINUOUS
  0
ENDTAB
  0
TABLE
  2
STYLE
 70
     1
  0
STYLE
  2
STANDARD
 70
     0
 40
0.0
 41
1.0
 50
0.0
 71
     0
 42
3.5
  3
GENISO
  4

  0
ENDTAB
  0
TABLE
  2
VIEW
 70
     0
  0
ENDTAB
  0
TABLE
  2
UCS
 70
     0
  0
ENDTAB
  0
TABLE
  2
APPID
 70
     1
  0
APPID
  2
ACAD
 70
    64
  0
ENDTAB
  0
TABLE
  2
DIMSTYLE
 70
     1
  0
DIMSTYLE
  2
GEN-ISO
 70
     0
  3

  4

  5

  6

  7

 40
1.0
 41
2.5
 42
1.0
 43
8.0
 44
2.0
 45
0.0
 46
0.0
 47
0.1
 48
0.1
140
3.5
141
2.0
142
0.0
143
25.39999999999999
144
1.0
145
0.0
146
0.71
147
1.5
 71
     0
 72
     0
 73
     0
 74
     0
 75
     0
 76
     0
 77
     1
 78
     8
170
     0
171
     2
172
     1
173
     0
174
     0
175
     0
176
   256
177
   256
178
     2
  0
ENDTAB
  0
ENDSEC
  0
SECTION
  2
BLOCKS
  0
ENDSEC
  0
SECTION
  2
ENTITIES
  0
LINE
  8
ITEM_50
  5
1E
 10
-1844.764477133381
 20
2645.473625775144
 30
0.0
 11
2155.235522866616
 21
2645.473625775143
 31
0.0
  0
LINE
  8
ITEM_50
  5
1F
 10
-1844.764477133381
 20
2675.473625775143
 30
0.0
 11
2155.235522866616
 21
2675.473625775143
 31
0.0
  0
LINE
  8
ITEM_50
  5
20
 10
-1844.764477133381
 20
-1590.203677947533
 30
0.0
 11
2155.235522866616
 21
-1590.203677947533
 31
0.0
  0
LINE
  8
ITEM_50
  5
21
 10
-1844.764477133381
 20
-1620.203677947532
 30
0.0
 11
2155.235522866616
 21
-1620.203677947532
 31
0.0
  0
LINE
  8
ITEM_50
  5
22
 10
-1041.450768634397
 20
-472.3650260861936
 30
0.0
 11
1351.92181436763
 21
-472.3650260861936
 31
0.0
  0
LINE
  8
ITEM_50
  5
23
 10
155.2355228666185
 20
1527.634973913806
 30
0.0
 11
1900.921814367636
 21
1527.634973913804
 31
0.0
  0
LINE
  8
ITEM_50
  5
24
 10
-1844.764477133381
 20
330.9486824127921
 30
0.0
 11
-1844.764477133381
 21
1273.321265414819
 31
0.0
  0
LINE
  8
ITEM_50
  5
25
 10
-1844.764477133381
 20
-1590.203677947533
 30
0.0
 11
-1844.764477133381
 21
-1620.203677947532
 31
0.0
  0
LINE
  8
ITEM_50
  5
26
 10
-1596.107622883889
 20
-1590.203677947533
 30
0.0
 11
-1596.107622883889
 21
-1620.203677947532
 31
0.0
  0
LINE
  8
ITEM_50
  5
27
 10
-1047.107622883889
 20
-470.0218803356856
 30
0.0
 11
-1842.421331382874
 21
325.2918281633006
 31
0.0
  0
ARC
  8
ITEM_50
  5
28
 10
-1836.764477133382
 20
330.9486824127921
 30
0.0
 40
8.0
 50
180.0
 51
225.0
  0
ARC
  8
ITEM_50
  5
29
 10
-1041.450768634397
 20
-464.365026086194
 30
0.0
 40
8.0
 50
225.0
 51
270.0
  0
LINE
  8
ITEM_50
  5
2A
 10
-1590.450768634396
 20
1527.634973913806
 30
0.0
 11
155.2355228666185
 21
1527.634973913806
 31
0.0
  0
LINE
  8
ITEM_50
  5
2B
 10
-1842.421331382874
 20
1278.97811966431
 30
0.0
 11
-1596.107622883889
 21
1525.291828163298
 31
0.0
  0
ARC
  8
ITEM_50
  5
2C
 10
-1836.764477133382
 20
1273.321265414819
 30
0.0
 40
8.0
 50
135.0
 51
180.0
  0
ARC
  8
ITEM_50
  5
2D
 10
-1590.450768634396
 20
1519.634973913806
 30
0.0
 40
8.0
 50
90.0
 51
135.0000000000002
  0
LINE
  8
ITEM_50
  5
2E
 10
-1844.764477133381
 20
2645.473625775143
 30
0.0
 11
-1844.764477133381
 21
2675.473625775143
 31
0.0
  0
LINE
  8
ITEM_50
  5
2F
 10
-1047.107622883889
 20
2645.473625775144
 30
0.0
 11
-1047.107622883889
 21
2675.473625775143
 31
0.0
  0
LINE
  8
ITEM_50
  5
30
 10
3289.546235927277
 20
-472.3650260861936
 30
0.0
 11
3289.546235927276
 21
1527.634973913804
 31
0.0
  0
LINE
  8
ITEM_50
  5
31
 10
3319.546235927276
 20
-472.3650260861936
 30
0.0
 11
3319.546235927276
 21
1527.634973913804
 31
0.0
  0
LINE
  8
ITEM_50
  5
32
 10
2155.235522866616
 20
330.9486824127898
 30
0.0
 11
2155.235522866618
 21
1273.321265414819
 31
0.0
  0
LINE
  8
ITEM_50
  5
33
 10
1906.578668617128
 20
-1590.203677947533
 30
0.0
 11
1906.578668617128
 21
-1620.203677947532
 31
0.0
  0
LINE
  8
ITEM_50
  5
34
 10
2155.235522866616
 20
-1590.203677947533
 30
0.0
 11
2155.235522866616
 21
-1620.203677947532
 31
0.0
  0
LINE
  8
ITEM_50
  5
35
 10
1357.578668617124
 20
-470.0218803356856
 30
0.0
 11
2152.89237711611
 21
325.2918281632982
 31
0.0
  0
ARC
  8
ITEM_50
  5
36
 10
1351.92181436763
 20
-464.365026086194
 30
0.0
 40
8.0
 50
270.0
 51
314.9999999999999
  0
ARC
  8
ITEM_50
  5
37
 10
2147.235522866619
 20
330.9486824127898
 30
0.0
 40
8.0
 50
314.9999999999999
 51
359.9999999999999
  0
LINE
  8
ITEM_50
  5
38
 10
3289.546235927276
 20
-472.3650260861936
 30
0.0
 11
3319.546235927276
 21
-472.3650260861936
 31
0.0
  0
LINE
  8
ITEM_50
  5
39
 10
3289.546235927276
 20
330.9486824127897
 30
0.0
 11
3319.546235927276
 21
330.9486824127898
 31
0.0
  0
LINE
  8
ITEM_50
  5
3A
 10
2152.89237711611
 20
1278.97811966431
 30
0.0
 11
1906.578668617127
 21
1525.291828163298
 31
0.0
  0
ARC
  8
ITEM_50
  5
3B
 10
1900.921814367636
 20
1519.634973913804
 30
0.0
 40
8.0
 50
44.99999999999984
 51
90.0
  0
ARC
  8
ITEM_50
  5
3C
 10
2147.235522866619
 20
1273.321265414819
 30
0.0
 40
8.0
 50
359.9999999999999
 51
45.0
  0
LINE
  8
ITEM_50
  5
3D
 10
1357.578668617122
 20
2645.473625775144
 30
0.0
 11
1357.578668617122
 21
2675.473625775143
 31
0.0
  0
LINE
  8
ITEM_50
  5
3E
 10
2155.235522866616
 20
2645.473625775144
 30
0.0
 11
2155.235522866616
 21
2675.473625775143
 31
0.0
  0
LINE
  8
ITEM_50
  5
3F
 10
3289.546235927276
 20
1273.321265414819
 30
0.0
 11
3319.546235927276
 21
1273.321265414819
 31
0.0
  0
LINE
  8
ITEM_50
  5
40
 10
3289.546235927276
 20
1527.634973913804
 30
0.0
 11
3319.546235927276
 21
1527.634973913804
 31
0.0
  0
ENDSEC
  0
EOF
